Sleep Soond in Da Morning

Trad. Shetland arranged by Cathi Pearce
www.barddance.org

Tuning : E A D G B E 	Time Signature: 4/4
 |       |       |       |        |       |       |       |
|0-------5---4---5-------0---2---|3---0---------------------------|
|--------------------------------|--------3---0-----------0-------|
|--------------------------------|----------------0-----2-----0---|
|--------------------------------|--------------------------------|
|0-------------------------------|--------------------------------|
|--------------------------------|3-------------------------------|

 |       |       |       |        |       |       |       |
|0-------5---4---5-------0---2---|3---0---------------------------|
|--------------------------------|--------3---0-------------------|
|--------------------------------|----------------2---------------|
|--------------------------------|--------------------------------|
|0-------------------------------|----------------0---------------|
|--------------------------------|3-------------------------------|

 |       |       |       |        |       |       |       |
|3---0---------------------------|----------------0---0-----------|
|--------3---0-----------0-------|1---1---------------------------|
|----------------2---------------|--------2---2-----------2---2---|
|--------------------------------|----------------2---------------|
|----------------0---------------|0-------------------------------|
|3-------------------------------|--------------------------------|

 |       |       |       |        |       |       |       |
|----------------0---0-----------|--------------------------------|
|1---1---------------------------|0---0---1---1---3---3---0---0---|
|--------2---2-----------2---2---|--------------------------------|
|----------------2---------------|--------------------------------|
|0-------------------------------|--------------------------------|
|--------------------------------|3-------------------------------|

 |       |       |       |        |       |       |       |
|--------------------------------|----------------0---0-----------|
|------------------------0-------|1---1---------------------------|
|0---0---------------------------|--------2---2-----------2---2---|
|--------------------------------|----------------2---------------|
|--------------------------------|0-------------------------------|
|--------------------------------|--------------------------------|

 |       |       |       |        |       |       |       |
|----------------0---0-----------|--------------------------------|
|1---1---------------------------|0---0---1---1---3---3---0---0---|
|--------2---2-----------2---2---|--------------------------------|
|----------------2---------------|--------------------------------|
|0-------------------------------|--------------------------------|
|--------------------------------|3-------------------------------|

 |       |       |       |        |       |       |       |
|--------------------------------|--------------------------------|
|----------------1-------0-------|--------0---0---1---1---3---3---|
|0---0---------------------------|2---2---------------------------|
|--------------------------------|----------------2---------------|
|--------------------------------|0-------------------------------|
|--------------------------------|--------------------------------|

 |       |       |       |        |       |       |       |
|0---0---2---2---3---3---5---5---|--------3---3---0---0-----------|
|--------------------------------|------------------------3---3---|
|--------------------------------|--------------------------------|
|--------------------------------|------------------------0-------|
|--------------------------------|--------------------------------|
|0---------------3---------------|--------3-----------------------|

 |       |       |       |        |       |       |       |
|--------------------------------|--------------------------------|
|0---0---------------0-----------|--------------------------------|
|--------0-------2---------0-----|2-------------------------------|
|--------------------------------|--------------------------------|
|--------------------------------|0-------------------------------|
|--------------------------------|--------------------------------|


Created with TablEdit, Tablature Editor