The Sans Day Carol

Trad. arranged by Cathi Pearce
www.barddance.org

Tuning : E A D G B E 	Time Signature: 3/4
 |       |       |        |       |       |        |       |       |
|----------------------0-|3-------3-------3-----1-|0-------------------0---|
|----------------1-------|------------1-----------|----3---1-------1-------|
|------------------------|----0-------------------|------------0-----------|
|------------------------|------------------------|------------------------|
|------------------------|3-----------------------|3-----------------------|
|------------------------|------------------------|------------------------|

 |       |       |        |       |       |        |       |       |
|1-----------------------|------------------------|--------------------0---|
|--------3-------0-------|1---------------1-------|1---------------1-------|
|------------------------|----0-------0-------0---|----0-------0-----------|
|0-----------------------|--------2---------------|--------2---------------|
|--------2---------------|3-----------------------|3-----------------------|
|----------------3-------|------------------------|------------------------|

 |       |       |        |       |       |        |       |       |
|3-------3-------3---1---|0-------------------0---|1-----------------------|
|------------1-----------|----3---1-------1-------|--------3-------0-------|
|----0-------------------|------------0-----------|------------------------|
|------------------------|------------------------|0-----------------------|
|3-----------------------|3-----------------------|--------2---------------|
|------------------------|------------------------|----------------3-------|

 |       |       |        |       |       |        |       |       |
|------------------------|--------------------0---|3-------3-------5---7---|
|1---------------1-------|1---------------1-------|------------1-----------|
|----0-------0-------0---|----0-------0-----------|----0-------------------|
|--------2---------------|--------2---------------|------------------------|
|3-----------------------|3-----------------------|3-----------------------|
|------------------------|------------------------|------------------------|

 |       |       |        |       |       |        |       |       |
|8---8-------------------|------------------------|8---------------------0-|
|--------8-----------8---|8-------8-------10--12--|8---------------1-------|
|----------------9-------|------------------------|9-----------------------|
|10----------------------|10----------------------|10----------------------|
|------------------------|------------------------|------------------------|
|------------------------|------------------------|------------------------|

 |       |       |        |       |       |        |       |       |
|3-------3-------3---1---|0-------------------0---|1-----------------------|
|------------1-----------|----3---1-------1-------|--------3-------0-------|
|----0-------------------|------------0-----------|------------------------|
|------------------------|------------------------|0-----------------------|
|3-----------------------|3-----------------------|--------2---------------|
|------------------------|------------------------|----------------3-------|

 |       |       |        |       |       |        |       |       |
|------------------------|----------------0-------|0-------------------0---|
|1---------------3-------|3-----------------------|----3---1-------1-------|
|------------------------|--------0---------------|------------0-----------|
|------------------------|------------------------|------------------------|
|3-----------------------|------------------------|3-----------------------|
|------------------------|3-----------------------|------------------------|

 |       |       |        |       |       |        |       |       |
|3-------3-------3---1---|0-------------------0---|1-----------------------|
|------------1-----------|----3---1-------1-------|--------3-------0-------|
|----0-------------------|------------0-----------|------------------------|
|------------------------|------------------------|0-----------------------|
|3-----------------------|3-----------------------|--------2---------------|
|------------------------|------------------------|----------------3-------|

 |       |       |        |       |       |        |       |       |
|------------------------|--------------------0---|------------------------|
|1---------------1-------|1---------------1-------|1-----------------------|
|----0-------0-------0---|----0-------0-----------|0-----------------------|
|--------2---------------|--------2---------------|2-----------------------|
|3-----------------------|3-----------------------|3-----------------------|
|------------------------|------------------------|------------------------|

Created with TablEdit, Tablature Editor