Away In A Manger

Trad. arranged for fingerstyle by Cathi Pearce
www.barddance.org

 %tempo=110      |        |       |       |        |       |       |
|------------------------|------------------------|------------------------|
|------------------------|--------------------0---|----------------0---1---|
|------------------------|0---------------2-------|0-----------------------|
|--------------------0---|----0-------0-----------|----0-------0-----------|
|------------------------|--------2---------------|--------2---------------|
|------------------------|3-----------------------|3-----------------------|

 |       |       |        |       |       |        |       |       |
|--------------------0---|------------------------|------------------------|
|3---------------3-------|1-------------------0---|1---------------3-------|
|----0-------0-----------|----0-------0---2-------|----0-------0-----------|
|--------0---------------|--------2---------------|--------2---------------|
|------------------------|3-----------------------|3-----------------------|
|3-----------------------|------------------------|------------------------|

 |       |       |        |       |       |        |       |       |
|------------------------|------------------------|------------------------|
|0---------------1---0---|------------------------|------------------------|
|----0-------0-----------|2---------------0-------|------------------------|
|--------0---------------|--------2---------------|4---2---0-----------0---|
|------------------------|0-----------------------|------------------------|
|3-----------------------|--------0-------3-------|------------------------|

 |       |       |        |       |       |        |       |       |
|------------------------|------------------------|--------------------0---|
|--------------------0---|----------------0---1---|3---------------3-------|
|0---------------2-------|0-----------------------|----0-------0-----------|
|----0-------0-----------|----0-------0-----------|--------0---------------|
|--------2---------------|--------2---------------|------------------------|
|3-----------------------|3-----------------------|3-----------------------|

 |       |       |        |       |       |        |       |       |
|------------------------|------------------------|------------------------|
|1-------------------0---|1---------------3-------|0---------------1---0---|
|----0-------0---2-------|----0-------0-----------|----0-------0-----------|
|--------2---------------|--------2---------------|--------0---------------|
|3-----------------------|3-----------------------|------------------------|
|------------------------|------------------------|3-----------------------|

 |       |       |        |       |       |        |       |       |
|------------------------|------------------------|------------------------|
|------------------------|------------------------|------------------------|
|2-----------------------|0-----------------------|0---------------0-------|
|--------2-------4-------|0-------------------0---|----0-------0-------0---|
|0---------------0-------|2-----------------------|--------2---------------|
|--------0---------------|3-----------------------|3-----------------------|

 |       |       |
|------------------------|
|------------------------|
|0-----------------------|
|0-----------------------|
|2-----------------------|
|3-----------------------|

Created with TablEdit, Tablature Editor